Logo
Depuis 1998

La tabulation de basse pour Hotel California

Ceci est une version de la ligne de basse du fameux slow des Eagles. La transcription ci-dessous est l’œuvre de Fabien HADDADI. Ce qui en fit en 1995 son premier document jamais publié sur Internet.
<Entête original>
#----------------------------------PLEASE NOTE---------------------------------#
#Ce fichier represente le travail personnel de son auteur et correspond a sa   #
#version de l’oeuvre. Vous ne pouvez seulement utiliser ce document à titre    #
# d’étude ou de recherche                                                      #
#------------------------------------------------------------------------------#
De: HADDADI Fabien, FRANCE
Date: Jeudi 30 Nov 95 10:16:08
<Revision>
Révision du 09 Avril 2005 par Fabien Haddadi
[Tablature Basse]
Hotel California
[WEA]
Musique et paroles par : Don Felder, Glen Frey & Don Henley
Symbols :  g : note fantôme (ghost key)
	  2/5: slide de 2 a 5
           \ : slide down vers…
	   b : bend
        (lr) : laissez la note sonner

tempo noire=72


G  ||----------------|----------------|----------------|----------------|
D 4||----------------|----------------|----------------|----------------|
A 4||----------------|9---------------|----------------|7---------------|
E  ||7---------------|----------------|5---------------|----------------|

    |----------------|----------------|----------------|----------------|
    |----------------|----------------|----------------|----------------|
    |----------------|5---------------|----------------|----------------|
    |3---------------|----------------|0---------------|2---------------|

    |----------------|----------------|----------------|----------------|
    |12-----14---16--|14------12-11---|11------12--14--|----------------|
    |----------------|----------------|----------------|14--------------|
    |----------------|----------------|----------------|----------------|

    |----------------|----------------|----------------|----------------|
    |----------------|--------12------|----------------|----------------|
    |14------16--17--|12--------------|----------------|----------------|
    |----------------|----------------|12--------------|\2--------------|
                                                                drum + +

(jouez 2 couplets)
COUPLETS
   ||--------------------------------|--------------------------------|
   ||------9---------9g9--------g4---|------4---------4---------------|
   ||----9---------9-----9---------0-|----4---------4--g4-------------|
   ||7-7-----------------------------|2-2-----------------2-----------|
drum +       +       +       +        +       +       +       +
    |--------------------------------|--------------------------------|
    |------7---------7g7-------------|------2---------2---------------|
    |----7---------7-----7------g5-0-|----2---------2--g2-------------|
    |5-5-----------------------------|0-0-----------------0-----------|

    |--------------------------------|------7---------7---------------|
    |------5---------5g5-------------|----7---------7--g7-0-----------|
    |----5---------5-----5------g5-0-|5-5------------------------g2-0-|
    |3-3-----------------------------|--------------------------------|
                                     >première fois                   <
    |--------------------------------|--------------------------------|
    |------2---------2g2-------------|------4---------4-------4-------|
    |----2---------2-----2------g2-0-|2-2-4---------4-------4---------|
    |0-0-----------------------------|--------------------------------|

    >2ième fois
    |--------------------------------||
    |------4---------4---------0-2-4-||
    |2-2-4---------4---------4-------||
    |--------------------------------||


REFRAIN I (deux fois)
   ||----------------------------2/--|7---------------7-------7-------|
   ||5---------------5-------5-------|--7-----------7-------7-----7\--|
   ||-5------------5-------5---------|----5---------------------------|
   ||---3----------------------------|--------------------------------|
    >première fois                                                    <

    |--------------------------------|--------------------------------|
    |4---------------4-------4-------|----------------0-------2---4---|
    |--4-----------4-------4-----4\--|2-------4-----------------------|
    |----2---------------------------|--------------------------------|

    >2ième fois
    |--------------------------------|-------------------------------||
    |2---------------2-------2-------|----4-----------4-------4------||
    |--2-----------2-------2-----2---|--4-----------4-------4--------||
    |----0---------------------------|2------------------------------||

(jouez 2 couplets)


REFRAIN II (deux fois)
   ||----------------------------2/--|7---------------7-------7-------|
   ||5---------------5-------5-------|--7-----------7-------7-----7\--|
   ||-5------------5-------5---------|----5---------------------------|
   ||---3----------------------------|--------------------------------|

    >première fois                                                    <
    |--------------------------------|--------------------------------|
    |4---------------4b2---------2---|----------------0-------2---4---|
    |--4---------4-4-----------------|2-------4-----------------------|
    |----2---2-----------------------|--------------------------------|

    >2ième fois
    |--------------------------------|-------------------------------||
    |2---------------2-------2-------|4------------------------------||
    |--2-----------2-------2-----2---|-------------------------------||
    |----0---------------------------|-------------------------------||


CODA I

  ||----------------|----------------|----------------|----------------|
  ||----------------|----------------|----------------|----------------|
  ||----------------|9---------------|----------------|7---------------|
  ||7---------------|----------------|5---------------|----------------|

   |----------------|----------------|----------------|----------------|
   |----------------|----------------|----------------|----------------|
   |----------------|5---------------|----------------|----------------|
   |3---------------|----------------|0---------------|2---------------|

   |---------------------------------|---------------------------------|
   |------9----------9g9--------g4---|------4---------4----------------|
   |----9----------9-----9---------0-|----4---------4--g4--------------|
   |7-7------------------------------|2-2-----------------2--------10--|

   |---------------------------------|---------------------------------|
   |------7----------7g7-------------|------2---------2----------------|
   |----7----------7-----7------g5-0-|----2---------2--g2--------------|
   |5-5------------------------------|0-0-----------------0------------|

   |---------------------------------|------7---------7----------------|
   |------5---------5g5--------------|----7---------7--g7-0------------|
   |----5---------5-----5-------g5-0-|5-5-------------------------g2-0-|
   |3-3------------------------------|---------------------------------|

   |---------------------------------|--------------------------------||
   |------2---------2g2--------------|------4---------4-2-4-----------||
   |----2---------2-----2-------g2-0-|2-2-4---------4-----------------||
   |0-0------------------------------|-----------------------\--------||


CODA II (pendant solo guitare)
(jouez deux fois)
   ||--------------------------------|--------------------------------|
   ||------9---------9g9--------g4---|------4---------4---------------|
   ||----9---------9-----9---------0-|----4---------4--g4-------------|
   ||7-7-----------------------------|2-2-----------------2---10\-----|

   |---------------------------------|--------------------------------|
   |------7----------7g7-------------|------2---------2---------------|
   |----7----------7-----7------g5-0-|----2---------2--g2-------------|
   |5-5------------------------------|0-0-----------------0---8\5\----|

   |---------------------------------|------7---------7---------------|
   |------5---------5g5--------------|----7---------7--g7-0-----------|
   |----5---------5-----5-------g5-0-|5-5-----------------------------|
   |3-3------------------------------|------------------------5\------|
                                     >première fois                   <
   |---------------------------------|--------------------------------|
   |------2---------2g2--------------|------4---------4-------4-------|
   |----2---------2-----2-------g2-0-|2-2-4---------4-------4---------|
   |0-0------------------------------|--------------------------------|

   >2ième fois

   |--------------------------------||
   |------4---------4-------4---2/--||
   |2-2-4---------4-------4---------||
   |--------------------------------||

   ||--------------------------------|--------------------------------|
   ||9-9(lr)---------9---9-----------|------4-------------4---4\------|
   ||--------------9---9---------9\--|----4-----4-------4--g4---------|
   ||--------7-----------------------|2-2---------2-------------------|

   |---------------------------------|--------------------------------|
   |------7--------------7---7-------|--------------------------------|
   |----7--------------7---7---7\----|------7-----------7-5---7\------|
   |5-5-------5----------------------|0-0-7-----------------7-7\------|

   |---------------------------------|------7---------7---------------|
   |------5---------5g5--------------|----7---------7--g7-0-----------|
   |----5---------5-----5-------g5-0-|5-5---------------------5\------|
   |3-3------------------------------|--------------------------------|

   |---------------------------------|--------------------------------|
   |------2---------2g2--------------|------4---------4-------4-------|
   |----2---------2-----2-------g2-0-|2-2-4---------4-------4---------|
   |0-0------------------------------|----------------------------2/--|

   |---------------------------------|--------------------------------|
   |---------------------------------|--------------------------------|
   |---------------------------------|9-9-9-9-9-9-9-9-9-9-9-9-9---9---|
   |7-7-7-7-7-7-7-7-7-7-7-7-7---7----|--------------------------------|
                            >   >                             >    >
   |---------------------------------|--------------------------------|
   |---------------------------------|--------------------------------|
   |---------------------------------|7-7-7-7-7-7-7-7-7-7-7-7-7---7---|
   |5-5-5-5-5-5-5-5-5-5-5-5-5---5----|--------------------------------|
                            >   >                             >    >
   |---------------------------------|--------------------------------|
   |5-5-5-5-5-5-5-5-5-5-5-5-5---5----|--------------------------------|
   |---------------------------------|5-5-5-5-5-5-5-5-5-5-5-5-5---5---|
   |---------------------------------|--------------------------------|
                            >   >                             >    >
   |---------------------------------|--------------------------------|
   |2-2-2-2-2-2-2-2-2-2-2-2-2---2----|4-4-4-4-4-4-4-4-4-4-4-4-4---4---|
   |---------------------------------|--------------------------------|
   |0-0-0-0-0-0-0-0-0-0-0-0-0---0----|2-2-2-2-2-2-2-2-2-2-2-2-2---2---|
                            >   >                             >    >

   (jouez une fois complètement, puis répétez en fade out…)
   |---------------------------------|--------------------------------|
   |------9---------9g9---------g4---|------4---------4---------------|
   |----9---------9-----9----------0-|----4---------4--g4-------------|
   |7-7------------------------------|2-2-----------------2---10\-----|

   |---------------------------------|--------------------------------|
   |------7---------7g7--------------|------2---------2---------------|
   |----7---------7-----7-------g5-0-|----2---------2--g2-------------|
   |5-5------------------------------|0-0-----------------0---8\--- --|

   |---------------------------------|------7---------7---------------|
   |------5---------5g5--------------|----7---------7--g7-0-----------|
   |----5---------5-----5-------g5-0-|5-5-----------------------------|
   |3-3------------------------------|------------------------5\------|

   |---------------------------------|--------------------------------||
   |------2---------2g2--------------|------4---------4-------4-------||
   |----2---------2-----2------g2-0--|2-2-4---------4-------4---------||
   |0-0------------------------------|--------------------------------||
                                                           (FADING…)
(1131 vues)
créé le 30 novembre 1995
révisé le 14 février 2017 par
Accepteriez-vous notre politique de confidentialité ? Elle parle de cookies et de données personnelles...